ISO-10303-21;
HEADER;
FILE_DESCRIPTION (( 'STEP AP203' ),
    '1' );
FILE_NAME ('BK7-LNPBSC-10-780.STEP',
    '2021-01-05T02:00:22',
    ( '' ),
    ( '' ),
    'SwSTEP 2.0',
    'SolidWorks 2020',
    '' );
FILE_SCHEMA (( 'CONFIG_CONTROL_DESIGN' ));
ENDSEC;

DATA;
#1 = PLANE ( 'NONE',  #264 ) ;
#2 = DIRECTION ( 'NONE',  ( 1.734723475976807094E-16, 1.000000000000000000, -0.000000000000000000 ) ) ;
#3 = PRODUCT_DEFINITION_SHAPE ( 'NONE', 'NONE',  #213 ) ;
#4 = CARTESIAN_POINT ( 'NONE',  ( -4.999999999999999112, 5.000000000000001776, -5.000000000000000000 ) ) ;
#5 = CARTESIAN_POINT ( 'NONE',  ( -4.999999999999999112, -5.000000000000000000, 5.000000000000000000 ) ) ;
#6 = PERSON_AND_ORGANIZATION_ROLE ( 'classification_officer' ) ;
#7 = PERSON_AND_ORGANIZATION_ROLE ( 'creator' ) ;
#8 = CC_DESIGN_PERSON_AND_ORGANIZATION_ASSIGNMENT ( #94, #38, ( #45 ) ) ;
#9 = DIRECTION ( 'NONE',  ( 0.7071067811865474617, -0.7071067811865475727, 0.000000000000000000 ) ) ;
#10 = EDGE_CURVE ( 'NONE', #49, #74, #308, .T. ) ;
#11 = VECTOR ( 'NONE', #307, 1000.000000000000000 ) ;
#12 = APPROVAL_ROLE ( '' ) ;
#13 = CARTESIAN_POINT ( 'NONE',  ( -4.999999999999999112, -5.000000000000000000, -5.000000000000000000 ) ) ;
#14 = FACE_OUTER_BOUND ( 'NONE', #46, .T. ) ;
#15 = PERSON_AND_ORGANIZATION ( #217, #305 ) ;
#16 = VECTOR ( 'NONE', #257, 1000.000000000000000 ) ;
#17 = EDGE_CURVE ( 'NONE', #74, #181, #301, .T. ) ;
#18 = ORIENTED_EDGE ( 'NONE', *, *, #32, .T. ) ;
#19 = EDGE_LOOP ( 'NONE', ( #42, #202, #72, #21 ) ) ;
#20 = EDGE_CURVE ( 'NONE', #90, #98, #283, .T. ) ;
#21 = ORIENTED_EDGE ( 'NONE', *, *, #79, .T. ) ;
#22 = ORIENTED_EDGE ( 'NONE', *, *, #84, .F. ) ;
#23 = AXIS2_PLACEMENT_3D ( 'NONE', #65, #92, #195 ) ;
#24 = DIRECTION ( 'NONE',  ( -0.7071067811865475727, -0.7071067811865474617, 0.000000000000000000 ) ) ;
#25 = VERTEX_POINT ( 'NONE', #189 ) ;
#26 = ADVANCED_FACE ( 'NONE', ( #240 ), #260, .T. ) ;
#27 = DIRECTION ( 'NONE',  ( 2.220446049250313081E-16, 1.000000000000000000, 0.000000000000000000 ) ) ;
#28 = CARTESIAN_POINT ( 'NONE',  ( 0.000000000000000000, 0.000000000000000000, 5.000000000000000000 ) ) ;
#29 = ADVANCED_FACE ( 'NONE', ( #130 ), #136, .T. ) ;
#30 = CARTESIAN_POINT ( 'NONE',  ( -4.999999999999999112, -5.000000000000000000, 5.000000000000000000 ) ) ;
#31 = CARTESIAN_POINT ( 'NONE',  ( 5.000000000000002665, 5.000000000000000000, -5.000000000000000000 ) ) ;
#32 = EDGE_CURVE ( 'NONE', #25, #250, #238, .T. ) ;
#33 = CARTESIAN_POINT ( 'NONE',  ( -4.999999999999999112, -5.000000000000000000, -5.000000000000000000 ) ) ;
#34 = PLANE ( 'NONE',  #254 ) ;
#35 = CARTESIAN_POINT ( 'NONE',  ( 5.000000000000002665, 5.000000000000000000, 5.000000000000000000 ) ) ;
#36 = PERSON_AND_ORGANIZATION ( #217, #305 ) ;
#37 = VECTOR ( 'NONE', #279, 1000.000000000000000 ) ;
#38 = PERSON_AND_ORGANIZATION_ROLE ( 'design_supplier' ) ;
#39 = DIRECTION ( 'NONE',  ( -1.000000000000000000, 1.734723475976807094E-16, 0.000000000000000000 ) ) ;
#40 = DIRECTION ( 'NONE',  ( 0.000000000000000000, 0.000000000000000000, 1.000000000000000000 ) ) ;
#41 = CC_DESIGN_DATE_AND_TIME_ASSIGNMENT ( #110, #197, ( #170 ) ) ;
#42 = ORIENTED_EDGE ( 'NONE', *, *, #282, .T. ) ;
#43 = EDGE_CURVE ( 'NONE', #320, #147, #82, .T. ) ;
#44 = ORIENTED_EDGE ( 'NONE', *, *, #288, .T. ) ;
#45 = PRODUCT_DEFINITION_FORMATION_WITH_SPECIFIED_SOURCE ( 'ANY', '', #128, .NOT_KNOWN. ) ;
#46 = EDGE_LOOP ( 'NONE', ( #225, #66, #103, #149 ) ) ;
#47 = EDGE_LOOP ( 'NONE', ( #179, #180, #272, #174 ) ) ;
#48 = DIRECTION ( 'NONE',  ( -0.000000000000000000, -0.000000000000000000, -1.000000000000000000 ) ) ;
#49 = VERTEX_POINT ( 'NONE', #56 ) ;
#50 = LINE ( 'NONE', #186, #11 ) ;
#51 = LINE ( 'NONE', #153, #245 ) ;
#52 = LINE ( 'NONE', #57, #150 ) ;
#53 = DIRECTION ( 'NONE',  ( 1.000000000000000000, 0.000000000000000000, 0.000000000000000000 ) ) ;
#54 = DIRECTION ( 'NONE',  ( -0.7071067811865475727, -0.7071067811865474617, 0.000000000000000000 ) ) ;
#55 = EDGE_CURVE ( 'NONE', #320, #25, #138, .T. ) ;
#56 = CARTESIAN_POINT ( 'NONE',  ( -4.999999999999999112, -5.000000000000000000, 5.000000000000000000 ) ) ;
#57 = CARTESIAN_POINT ( 'NONE',  ( 5.000000000000002665, 5.000000000000000000, 5.000000000000000000 ) ) ;
#58 = CARTESIAN_POINT ( 'NONE',  ( 5.000000000000000888, 5.000000000000001776, 5.000000000000000000 ) ) ;
#59 = DIRECTION ( 'NONE',  ( 0.000000000000000000, -0.000000000000000000, 1.000000000000000000 ) ) ;
#60 = DIRECTION ( 'NONE',  ( 0.000000000000000000, 0.000000000000000000, 1.000000000000000000 ) ) ;
#61 = CARTESIAN_POINT ( 'NONE',  ( -5.000000000000000888, -4.999999999999998224, 5.000000000000000000 ) ) ;
#62 = COORDINATED_UNIVERSAL_TIME_OFFSET ( 8, 0, .AHEAD. ) ;
#63 = PLANE ( 'NONE',  #143 ) ;
#64 = PERSON_AND_ORGANIZATION ( #217, #305 ) ;
#65 = CARTESIAN_POINT ( 'NONE',  ( -4.999999999999999112, -5.000000000000000000, 5.000000000000000000 ) ) ;
#66 = ORIENTED_EDGE ( 'NONE', *, *, #123, .F. ) ;
#67 = CALENDAR_DATE ( 2021, 5, 1 ) ;
#68 = ORIENTED_EDGE ( 'NONE', *, *, #17, .F. ) ;
#69 = ADVANCED_FACE ( 'NONE', ( #256 ), #164, .F. ) ;
#70 = EDGE_LOOP ( 'NONE', ( #230, #299, #68, #140 ) ) ;
#71 = CC_DESIGN_PERSON_AND_ORGANIZATION_ASSIGNMENT ( #313, #142, ( #45 ) ) ;
#72 = ORIENTED_EDGE ( 'NONE', *, *, #268, .F. ) ;
#73 = APPROVAL_PERSON_ORGANIZATION ( #64, #286, #287 ) ;
#74 = VERTEX_POINT ( 'NONE', #77 ) ;
#75 = CARTESIAN_POINT ( 'NONE',  ( 5.000000000000000888, 5.000000000000001776, -5.000000000000000000 ) ) ;
#76 = ORIENTED_EDGE ( 'NONE', *, *, #160, .T. ) ;
#77 = CARTESIAN_POINT ( 'NONE',  ( 5.000000000000000888, -5.000000000000000000, 5.000000000000000000 ) ) ;
#78 = APPROVAL_PERSON_ORGANIZATION ( #112, #96, #12 ) ;
#79 = EDGE_CURVE ( 'NONE', #181, #318, #134, .T. ) ;
#80 = DIRECTION ( 'NONE',  ( -0.000000000000000000, -0.000000000000000000, -1.000000000000000000 ) ) ;
#81 = CARTESIAN_POINT ( 'NONE',  ( 5.000000000000002665, 5.000000000000000000, -5.000000000000000000 ) ) ;
#82 = LINE ( 'NONE', #236, #93 ) ;
#83 = CARTESIAN_POINT ( 'NONE',  ( -5.000000000000000888, -4.999999999999998224, 5.000000000000000000 ) ) ;
#84 = EDGE_CURVE ( 'NONE', #204, #318, #183, .T. ) ;
#85 = AXIS2_PLACEMENT_3D ( 'NONE', #61, #95, #40 ) ;
#86 = SHAPE_DEFINITION_REPRESENTATION ( #3, #161 ) ;
#87 = DIRECTION ( 'NONE',  ( -0.000000000000000000, 0.000000000000000000, -1.000000000000000000 ) ) ;
#88 = DATE_AND_TIME ( #267, #273 ) ;
#89 = DIRECTION ( 'NONE',  ( 2.220446049250313081E-16, 1.000000000000000000, 0.000000000000000000 ) ) ;
#90 = VERTEX_POINT ( 'NONE', #132 ) ;
#91 = DATE_AND_TIME ( #243, #258 ) ;
#92 = DIRECTION ( 'NONE',  ( 0.000000000000000000, 1.000000000000000000, 0.000000000000000000 ) ) ;
#93 = VECTOR ( 'NONE', #87, 1000.000000000000000 ) ;
#94 = PERSON_AND_ORGANIZATION ( #217, #305 ) ;
#95 = DIRECTION ( 'NONE',  ( 1.000000000000000000, -2.220446049250313081E-16, 0.000000000000000000 ) ) ;
#96 = APPROVAL ( #173, 'UNSPECIFIED' ) ;
#97 = VERTEX_POINT ( 'NONE', #33 ) ;
#98 = VERTEX_POINT ( 'NONE', #4 ) ;
#99 = VECTOR ( 'NONE', #80, 1000.000000000000000 ) ;
#100 = UNCERTAINTY_MEASURE_WITH_UNIT (LENGTH_MEASURE( 1.000000000000000082E-05 ), #300, 'distance_accuracy_value', 'NONE');
#101 = DIRECTION ( 'NONE',  ( -0.7071067811865474617, 0.7071067811865475727, 0.000000000000000000 ) ) ;
#102 = ORIENTED_EDGE ( 'NONE', *, *, #178, .T. ) ;
#103 = ORIENTED_EDGE ( 'NONE', *, *, #10, .F. ) ;
#104 = EDGE_CURVE ( 'NONE', #90, #320, #51, .T. ) ;
#105 = DIRECTION ( 'NONE',  ( -0.000000000000000000, 0.000000000000000000, 1.000000000000000000 ) ) ;
#106 = LINE ( 'NONE', #304, #99 ) ;
#107 = LOCAL_TIME ( 10, 0, 22.00000000000000000, #62 ) ;
#108 = CARTESIAN_POINT ( 'NONE',  ( -5.000000000000000888, -4.999999999999998224, 5.000000000000000000 ) ) ;
#109 = CARTESIAN_POINT ( 'NONE',  ( 0.000000000000000000, 0.000000000000000000, -5.000000000000000000 ) ) ;
#110 = DATE_AND_TIME ( #223, #144 ) ;
#111 = ORIENTED_EDGE ( 'NONE', *, *, #17, .T. ) ;
#112 = PERSON_AND_ORGANIZATION ( #217, #305 ) ;
#113 = CC_DESIGN_APPROVAL ( #116, ( #45 ) ) ;
#114 = DATE_TIME_ROLE ( 'creation_date' ) ;
#115 = FACE_OUTER_BOUND ( 'NONE', #70, .T. ) ;
#116 = APPROVAL ( #119, 'UNSPECIFIED' ) ;
#117 = LINE ( 'NONE', #220, #228 ) ;
#118 = AXIS2_PLACEMENT_3D ( 'NONE', #28, #59, #209 ) ;
#119 = APPROVAL_STATUS ( 'not_yet_approved' ) ;
#120 = LOCAL_TIME ( 10, 0, 22.00000000000000000, #219 ) ;
#121 = ORIENTED_EDGE ( 'NONE', *, *, #282, .F. ) ;
#122 = AXIS2_PLACEMENT_3D ( 'NONE', #206, #157, #229 ) ;
#123 = EDGE_CURVE ( 'NONE', #74, #204, #106, .T. ) ;
#124 = ORIENTED_EDGE ( 'NONE', *, *, #20, .T. ) ;
#125 = VECTOR ( 'NONE', #312, 1000.000000000000000 ) ;
#126 = DIRECTION ( 'NONE',  ( 2.220446049250313081E-16, 1.000000000000000000, 0.000000000000000000 ) ) ;
#127 = ORIENTED_EDGE ( 'NONE', *, *, #221, .T. ) ;
#128 = PRODUCT ( 'BK7-LNPBSC-10-780', 'BK7-LNPBSC-10-780', '', ( #171 ) ) ;
#129 = LINE ( 'NONE', #75, #218 ) ;
#130 = FACE_OUTER_BOUND ( 'NONE', #146, .T. ) ;
#131 = EDGE_CURVE ( 'NONE', #97, #204, #185, .T. ) ;
#132 = CARTESIAN_POINT ( 'NONE',  ( -4.999999999999999112, 5.000000000000001776, 5.000000000000000000 ) ) ;
#133 =( NAMED_UNIT ( * ) SI_UNIT ( $, .STERADIAN. ) SOLID_ANGLE_UNIT ( ) );
#134 = LINE ( 'NONE', #35, #16 ) ;
#135 = CARTESIAN_POINT ( 'NONE',  ( 0.000000000000000000, 0.000000000000000000, -5.000000000000000000 ) ) ;
#136 = PLANE ( 'NONE',  #190 ) ;
#137 = CARTESIAN_POINT ( 'NONE',  ( 0.000000000000000000, 0.000000000000000000, 0.000000000000000000 ) ) ;
#138 = LINE ( 'NONE', #58, #271 ) ;
#139 = PERSON_AND_ORGANIZATION ( #217, #305 ) ;
#140 = ORIENTED_EDGE ( 'NONE', *, *, #123, .T. ) ;
#141 = CARTESIAN_POINT ( 'NONE',  ( 5.000000000000002665, 5.000000000000000000, 5.000000000000000000 ) ) ;
#142 = PERSON_AND_ORGANIZATION_ROLE ( 'creator' ) ;
#143 = AXIS2_PLACEMENT_3D ( 'NONE', #266, #39, #167 ) ;
#144 = LOCAL_TIME ( 10, 0, 22.00000000000000000, #215 ) ;
#145 = ORIENTED_EDGE ( 'NONE', *, *, #43, .F. ) ;
#146 = EDGE_LOOP ( 'NONE', ( #274, #148, #111 ) ) ;
#147 = VERTEX_POINT ( 'NONE', #310 ) ;
#148 = ORIENTED_EDGE ( 'NONE', *, *, #10, .T. ) ;
#149 = ORIENTED_EDGE ( 'NONE', *, *, #244, .T. ) ;
#150 = VECTOR ( 'NONE', #54, 1000.000000000000000 ) ;
#151 = APPROVAL_PERSON_ORGANIZATION ( #15, #116, #199 ) ;
#152 = LINE ( 'NONE', #83, #200 ) ;
#153 = CARTESIAN_POINT ( 'NONE',  ( 5.000000000000000888, 5.000000000000001776, 5.000000000000000000 ) ) ;
#154 = PLANE ( 'NONE',  #122 ) ;
#155 = DIRECTION ( 'NONE',  ( 1.734723475976807094E-16, 1.000000000000000000, -0.000000000000000000 ) ) ;
#156 = ADVANCED_FACE ( 'NONE', ( #115 ), #63, .F. ) ;
#157 = DIRECTION ( 'NONE',  ( -4.857225732735059864E-17, -1.000000000000000000, 0.000000000000000000 ) ) ;
#158 = CARTESIAN_POINT ( 'NONE',  ( 5.000000000000002665, 5.000000000000000000, 5.000000000000000000 ) ) ;
#159 = VECTOR ( 'NONE', #281, 1000.000000000000000 ) ;
#160 = EDGE_CURVE ( 'NONE', #250, #98, #117, .T. ) ;
#161 = ADVANCED_BREP_SHAPE_REPRESENTATION ( 'BK7-LNPBSC-10-780', ( #265, #262, #296 ), #198 ) ;
#162 = DIRECTION ( 'NONE',  ( 0.7071067811865475727, 0.7071067811865474617, 0.000000000000000000 ) ) ;
#163 = DATE_AND_TIME ( #222, #120 ) ;
#164 = PLANE ( 'NONE',  #177 ) ;
#165 = ORIENTED_EDGE ( 'NONE', *, *, #32, .F. ) ;
#166 = APPROVAL_DATE_TIME ( #163, #96 ) ;
#167 = DIRECTION ( 'NONE',  ( -1.734723475976807094E-16, -1.000000000000000000, 0.000000000000000000 ) ) ;
#168 = APPLICATION_PROTOCOL_DEFINITION ( 'international standard', 'config_control_design', 1994, #196 ) ;
#169 = FACE_OUTER_BOUND ( 'NONE', #298, .T. ) ;
#170 = SECURITY_CLASSIFICATION ( '', '', #284 ) ;
#171 = MECHANICAL_CONTEXT ( 'NONE', #176, 'mechanical' ) ;
#172 = LINE ( 'NONE', #290, #125 ) ;
#173 = APPROVAL_STATUS ( 'not_yet_approved' ) ;
#174 = ORIENTED_EDGE ( 'NONE', *, *, #43, .T. ) ;
#175 = ADVANCED_FACE ( 'NONE', ( #193 ), #285, .F. ) ;
#176 = APPLICATION_CONTEXT ( 'configuration controlled 3d designs of mechanical parts and assemblies' ) ;
#177 = AXIS2_PLACEMENT_3D ( 'NONE', #261, #9, #162 ) ;
#178 = EDGE_CURVE ( 'NONE', #98, #147, #172, .T. ) ;
#179 = ORIENTED_EDGE ( 'NONE', *, *, #178, .F. ) ;
#180 = ORIENTED_EDGE ( 'NONE', *, *, #20, .F. ) ;
#181 = VERTEX_POINT ( 'NONE', #141 ) ;
#182 = LINE ( 'NONE', #30, #248 ) ;
#183 = LINE ( 'NONE', #31, #203 ) ;
#184 = ADVANCED_FACE ( 'NONE', ( #14 ), #314, .F. ) ;
#185 = LINE ( 'NONE', #13, #280 ) ;
#186 = CARTESIAN_POINT ( 'NONE',  ( 5.000000000000002665, 5.000000000000000000, -5.000000000000000000 ) ) ;
#187 = CARTESIAN_POINT ( 'NONE',  ( 5.000000000000000888, 5.000000000000001776, 5.000000000000000000 ) ) ;
#188 = CC_DESIGN_DATE_AND_TIME_ASSIGNMENT ( #88, #114, ( #213 ) ) ;
#189 = CARTESIAN_POINT ( 'NONE',  ( -5.000000000000000888, -4.999999999999998224, 5.000000000000000000 ) ) ;
#190 = AXIS2_PLACEMENT_3D ( 'NONE', #216, #255, #53 ) ;
#191 = COORDINATED_UNIVERSAL_TIME_OFFSET ( 8, 0, .AHEAD. ) ;
#192 = APPROVAL_DATE_TIME ( #91, #116 ) ;
#193 = FACE_OUTER_BOUND ( 'NONE', #207, .T. ) ;
#194 = APPROVAL_STATUS ( 'not_yet_approved' ) ;
#195 = DIRECTION ( 'NONE',  ( 0.000000000000000000, -0.000000000000000000, 1.000000000000000000 ) ) ;
#196 = APPLICATION_CONTEXT ( 'configuration controlled 3d designs of mechanical parts and assemblies' ) ;
#197 = DATE_TIME_ROLE ( 'classification_date' ) ;
#198 =( GEOMETRIC_REPRESENTATION_CONTEXT ( 3 ) GLOBAL_UNCERTAINTY_ASSIGNED_CONTEXT ( ( #100 ) ) GLOBAL_UNIT_ASSIGNED_CONTEXT ( ( #300, #303, #133 ) ) REPRESENTATION_CONTEXT ( 'NONE', 'WORKASPACE' ) );
#199 = APPROVAL_ROLE ( '' ) ;
#200 = VECTOR ( 'NONE', #126, 1000.000000000000000 ) ;
#201 = ADVANCED_FACE ( 'NONE', ( #169 ), #306, .F. ) ;
#202 = ORIENTED_EDGE ( 'NONE', *, *, #244, .F. ) ;
#203 = VECTOR ( 'NONE', #2, 1000.000000000000000 ) ;
#204 = VERTEX_POINT ( 'NONE', #278 ) ;
#205 = CC_DESIGN_APPROVAL ( #286, ( #170 ) ) ;
#206 = CARTESIAN_POINT ( 'NONE',  ( 5.000000000000000888, 5.000000000000001776, 5.000000000000000000 ) ) ;
#207 = EDGE_LOOP ( 'NONE', ( #269, #165, #44, #124 ) ) ;
#208 = DIRECTION ( 'NONE',  ( 1.000000000000000000, 0.000000000000000000, 0.000000000000000000 ) ) ;
#209 = DIRECTION ( 'NONE',  ( 2.220446049250313081E-16, 1.000000000000000000, 0.000000000000000000 ) ) ;
#210 = FACE_OUTER_BOUND ( 'NONE', #47, .T. ) ;
#211 = DIRECTION ( 'NONE',  ( 1.000000000000000000, 0.000000000000000000, 0.000000000000000000 ) ) ;
#212 = DIRECTION ( 'NONE',  ( -0.7071067811865475727, -0.7071067811865474617, 0.000000000000000000 ) ) ;
#213 = PRODUCT_DEFINITION ( 'UNKNOWN', '', #45, #235 ) ;
#214 = DIRECTION ( 'NONE',  ( 0.000000000000000000, -0.000000000000000000, 1.000000000000000000 ) ) ;
#215 = COORDINATED_UNIVERSAL_TIME_OFFSET ( 8, 0, .AHEAD. ) ;
#216 = CARTESIAN_POINT ( 'NONE',  ( 0.000000000000000000, 0.000000000000000000, 5.000000000000000000 ) ) ;
#217 = PERSON ( 'UNSPECIFIED', 'UNSPECIFIED', 'UNSPECIFIED', ('UNSPECIFIED'), ('UNSPECIFIED'), ('UNSPECIFIED') ) ;
#218 = VECTOR ( 'NONE', #24, 1000.000000000000000 ) ;
#219 = COORDINATED_UNIVERSAL_TIME_OFFSET ( 8, 0, .AHEAD. ) ;
#220 = CARTESIAN_POINT ( 'NONE',  ( -5.000000000000000888, -4.999999999999998224, -5.000000000000000000 ) ) ;
#221 = EDGE_CURVE ( 'NONE', #147, #250, #129, .T. ) ;
#222 = CALENDAR_DATE ( 2021, 5, 1 ) ;
#223 = CALENDAR_DATE ( 2021, 5, 1 ) ;
#224 = CC_DESIGN_PERSON_AND_ORGANIZATION_ASSIGNMENT ( #139, #6, ( #170 ) ) ;
#225 = ORIENTED_EDGE ( 'NONE', *, *, #131, .T. ) ;
#226 = CC_DESIGN_SECURITY_CLASSIFICATION ( #170, ( #45 ) ) ;
#227 = ORIENTED_EDGE ( 'NONE', *, *, #55, .F. ) ;
#228 = VECTOR ( 'NONE', #89, 1000.000000000000000 ) ;
#229 = DIRECTION ( 'NONE',  ( -1.000000000000000000, 4.857225732735059864E-17, 0.000000000000000000 ) ) ;
#230 = ORIENTED_EDGE ( 'NONE', *, *, #84, .T. ) ;
#231 = PRODUCT_RELATED_PRODUCT_CATEGORY ( 'detail', '', ( #128 ) ) ;
#232 = DIRECTION ( 'NONE',  ( 1.000000000000000000, -4.857225732735059864E-17, 0.000000000000000000 ) ) ;
#233 = VECTOR ( 'NONE', #155, 1000.000000000000000 ) ;
#234 = CARTESIAN_POINT ( 'NONE',  ( 5.000000000000000888, 5.000000000000001776, 5.000000000000000000 ) ) ;
#235 = DESIGN_CONTEXT ( 'detailed design', #196, 'design' ) ;
#236 = CARTESIAN_POINT ( 'NONE',  ( 5.000000000000000888, 5.000000000000001776, 5.000000000000000000 ) ) ;
#237 = AXIS2_PLACEMENT_3D ( 'NONE', #109, #214, #27 ) ;
#238 = LINE ( 'NONE', #108, #159 ) ;
#239 = FACE_OUTER_BOUND ( 'NONE', #249, .T. ) ;
#240 = FACE_OUTER_BOUND ( 'NONE', #270, .T. ) ;
#241 = APPLICATION_PROTOCOL_DEFINITION ( 'international standard', 'config_control_design', 1994, #176 ) ;
#242 = PERSON_AND_ORGANIZATION ( #217, #305 ) ;
#243 = CALENDAR_DATE ( 2021, 5, 1 ) ;
#244 = EDGE_CURVE ( 'NONE', #49, #97, #182, .T. ) ;
#245 = VECTOR ( 'NONE', #232, 1000.000000000000000 ) ;
#246 = ADVANCED_FACE ( 'NONE', ( #259 ), #34, .F. ) ;
#247 = CLOSED_SHELL ( 'NONE', ( #297, #175, #302, #26, #201 ) ) ;
#248 = VECTOR ( 'NONE', #48, 1000.000000000000000 ) ;
#249 = EDGE_LOOP ( 'NONE', ( #321, #145, #251, #18 ) ) ;
#250 = VERTEX_POINT ( 'NONE', #275 ) ;
#251 = ORIENTED_EDGE ( 'NONE', *, *, #55, .T. ) ;
#252 = VECTOR ( 'NONE', #211, 1000.000000000000000 ) ;
#253 = DIRECTION ( 'NONE',  ( 0.7071067811865475727, 0.7071067811865474617, 0.000000000000000000 ) ) ;
#254 = AXIS2_PLACEMENT_3D ( 'NONE', #135, #105, #208 ) ;
#255 = DIRECTION ( 'NONE',  ( -0.000000000000000000, 0.000000000000000000, 1.000000000000000000 ) ) ;
#256 = FACE_OUTER_BOUND ( 'NONE', #19, .T. ) ;
#257 = DIRECTION ( 'NONE',  ( -0.000000000000000000, -0.000000000000000000, -1.000000000000000000 ) ) ;
#258 = LOCAL_TIME ( 10, 0, 22.00000000000000000, #291 ) ;
#259 = FACE_OUTER_BOUND ( 'NONE', #293, .T. ) ;
#260 = PLANE ( 'NONE',  #118 ) ;
#261 = CARTESIAN_POINT ( 'NONE',  ( 5.000000000000002665, 5.000000000000000000, 5.000000000000000000 ) ) ;
#262 = MANIFOLD_SOLID_BREP ( '¾µÏ', #247 ) ;
#263 = DIRECTION ( 'NONE',  ( 1.000000000000000000, 0.000000000000000000, 0.000000000000000000 ) ) ;
#264 = AXIS2_PLACEMENT_3D ( 'NONE', #187, #101, #253 ) ;
#265 = MANIFOLD_SOLID_BREP ( 'Í¹Ì¨-À', #316 ) ;
#266 = CARTESIAN_POINT ( 'NONE',  ( 5.000000000000002665, 5.000000000000000000, 5.000000000000000000 ) ) ;
#267 = CALENDAR_DATE ( 2021, 5, 1 ) ;
#268 = EDGE_CURVE ( 'NONE', #181, #49, #52, .T. ) ;
#269 = ORIENTED_EDGE ( 'NONE', *, *, #160, .F. ) ;
#270 = EDGE_LOOP ( 'NONE', ( #227, #276, #292 ) ) ;
#271 = VECTOR ( 'NONE', #212, 1000.000000000000000 ) ;
#272 = ORIENTED_EDGE ( 'NONE', *, *, #104, .T. ) ;
#273 = LOCAL_TIME ( 10, 0, 22.00000000000000000, #191 ) ;
#274 = ORIENTED_EDGE ( 'NONE', *, *, #268, .T. ) ;
#275 = CARTESIAN_POINT ( 'NONE',  ( -5.000000000000000888, -4.999999999999998224, -5.000000000000000000 ) ) ;
#276 = ORIENTED_EDGE ( 'NONE', *, *, #104, .F. ) ;
#277 = CARTESIAN_POINT ( 'NONE',  ( -4.999999999999999112, 5.000000000000001776, 5.000000000000000000 ) ) ;
#278 = CARTESIAN_POINT ( 'NONE',  ( 5.000000000000000888, -5.000000000000000000, -5.000000000000000000 ) ) ;
#279 = DIRECTION ( 'NONE',  ( -0.000000000000000000, 0.000000000000000000, -1.000000000000000000 ) ) ;
#280 = VECTOR ( 'NONE', #263, 1000.000000000000000 ) ;
#281 = DIRECTION ( 'NONE',  ( -0.000000000000000000, 0.000000000000000000, -1.000000000000000000 ) ) ;
#282 = EDGE_CURVE ( 'NONE', #318, #97, #50, .T. ) ;
#283 = LINE ( 'NONE', #277, #37 ) ;
#284 = SECURITY_CLASSIFICATION_LEVEL ( 'unclassified' ) ;
#285 = PLANE ( 'NONE',  #85 ) ;
#286 = APPROVAL ( #194, 'UNSPECIFIED' ) ;
#287 = APPROVAL_ROLE ( '' ) ;
#288 = EDGE_CURVE ( 'NONE', #25, #90, #152, .T. ) ;
#289 = DIRECTION ( 'NONE',  ( 1.000000000000000000, 0.000000000000000000, 0.000000000000000000 ) ) ;
#290 = CARTESIAN_POINT ( 'NONE',  ( 5.000000000000000888, 5.000000000000001776, -5.000000000000000000 ) ) ;
#291 = COORDINATED_UNIVERSAL_TIME_OFFSET ( 8, 0, .AHEAD. ) ;
#292 = ORIENTED_EDGE ( 'NONE', *, *, #288, .F. ) ;
#293 = EDGE_LOOP ( 'NONE', ( #121, #22, #294 ) ) ;
#294 = ORIENTED_EDGE ( 'NONE', *, *, #131, .F. ) ;
#295 = CC_DESIGN_PERSON_AND_ORGANIZATION_ASSIGNMENT ( #36, #7, ( #213 ) ) ;
#296 = AXIS2_PLACEMENT_3D ( 'NONE', #137, #60, #289 ) ;
#297 = ADVANCED_FACE ( 'NONE', ( #239 ), #1, .F. ) ;
#298 = EDGE_LOOP ( 'NONE', ( #127, #76, #102 ) ) ;
#299 = ORIENTED_EDGE ( 'NONE', *, *, #79, .F. ) ;
#300 =( LENGTH_UNIT ( ) NAMED_UNIT ( * ) SI_UNIT ( .MILLI., .METRE. ) );
#301 = LINE ( 'NONE', #158, #233 ) ;
#302 = ADVANCED_FACE ( 'NONE', ( #210 ), #154, .F. ) ;
#303 =( NAMED_UNIT ( * ) PLANE_ANGLE_UNIT ( ) SI_UNIT ( $, .RADIAN. ) );
#304 = CARTESIAN_POINT ( 'NONE',  ( 5.000000000000000888, -5.000000000000000000, 5.000000000000000000 ) ) ;
#305 = ORGANIZATION ( 'UNSPECIFIED', 'UNSPECIFIED', '' ) ;
#306 = PLANE ( 'NONE',  #237 ) ;
#307 = DIRECTION ( 'NONE',  ( -0.7071067811865475727, -0.7071067811865474617, 0.000000000000000000 ) ) ;
#308 = LINE ( 'NONE', #5, #252 ) ;
#309 = APPROVAL_DATE_TIME ( #315, #286 ) ;
#310 = CARTESIAN_POINT ( 'NONE',  ( 5.000000000000000888, 5.000000000000001776, -5.000000000000000000 ) ) ;
#311 = PERSON_AND_ORGANIZATION_ROLE ( 'design_owner' ) ;
#312 = DIRECTION ( 'NONE',  ( 1.000000000000000000, -4.857225732735059864E-17, 0.000000000000000000 ) ) ;
#313 = PERSON_AND_ORGANIZATION ( #217, #305 ) ;
#314 = PLANE ( 'NONE',  #23 ) ;
#315 = DATE_AND_TIME ( #67, #107 ) ;
#316 = CLOSED_SHELL ( 'NONE', ( #69, #184, #156, #29, #246 ) ) ;
#317 = CC_DESIGN_APPROVAL ( #96, ( #213 ) ) ;
#318 = VERTEX_POINT ( 'NONE', #81 ) ;
#319 = CC_DESIGN_PERSON_AND_ORGANIZATION_ASSIGNMENT ( #242, #311, ( #128 ) ) ;
#320 = VERTEX_POINT ( 'NONE', #234 ) ;
#321 = ORIENTED_EDGE ( 'NONE', *, *, #221, .F. ) ;
ENDSEC;
END-ISO-10303-21;
